  0
SECTION
  2
HEADER
  9
$ACADVER
  1
AC1004
  9
$INSBASE
 10
0.0
 20
0.0
  9
$EXTMIN
 10
-99.26
 20
-103.425
  9
$EXTMAX
 10
3050.74
 20
4351.575
  9
$LIMMIN
 10
-99.26
 20
-103.425
  9
$LIMMAX
 10
3050.74
 20
4351.575
  9
$VIEWCTR
 10
6.0
 20
4.5
  9
$VIEWSIZE
 40
9.0
  9
$SNAPMODE
 70
     0
  9
$SNAPUNIT
 10
25.0
 20
25.0
  9
$SNAPBASE
 10
0.0
 20
0.0
  9
$SNAPANG
 50
0.0
  9
$SNAPSTYLE
 70
     0
  9
$SNAPISOPAIR
 70
     0
  9
$GRIDMODE
 70
     1
  9
$GRIDUNIT
 10
100.0
 20
100.0
  9
$ORTHOMODE
 70
     0
  9
$REGENMODE
 70
     1
  9
$FILLMODE
 70
     1
  9
$QTEXTMODE
 70
     0
  9
$DRAGMODE
 70
     2
  9
$LTSCALE
 40
1.0
  9
$OSMODE
 70
     1
  9
$ATTMODE
 70
     1
  9
$TEXTSIZE
 40
0.2
  9
$TRACEWID
 40
0.05
  9
$TEXTSTYLE
  7
STANDARD
  9
$CLAYER
  8
DATA
  9
$CELTYPE
  6
CONTINUOUS
  9
$CECOLOR
 62
     7
  9
$DIMSCALE
 40
1.0
  9
$DIMASZ
 40
0.18
  9
$DIMEXO
 40
0.0625
  9
$DIMDLI
 40
0.38
  9
$DIMRND
 40
0.0
  9
$DIMDLE
 40
0.0
  9
$DIMEXE
 40
0.18
  9
$DIMTP
 40
0.0
  9
$DIMTM
 40
0.0
  9
$DIMTXT
 40
0.18
  9
$DIMCEN
 40
0.09
  9
$DIMTSZ
 40
0.0
  9
$DIMTOL
 70
     0
  9
$DIMLIM
 70
     0
  9
$DIMTIH
 70
     1
  9
$DIMTOH
 70
     1
  9
$DIMSE1
 70
     0
  9
$DIMSE2
 70
     0
  9
$DIMTAD
 70
     0
  9
$DIMZIN
 70
     0
  9
$DIMBLK
  1

  9
$DIMASO
 70
     1
  9
$DIMSHO
 70
     1
  9
$DIMPOST
  1

  9
$DIMAPOST
  1

  9
$DIMALT
 70
     0
  9
$DIMALTD
 70
     2
  9
$DIMALTF
 40
25.4
  9
$DIMLFAC
 40
1.0
  9
$LUNITS
 70
     2
  9
$LUPREC
 70
     4
  9
$AXISMODE
 70
     0
  9
$AXISUNIT
 10
0.0
 20
0.0
  9
$SKETCHINC
 40
0.1
  9
$FILLETRAD
 40
5.0
  9
$AUNITS
 70
     0
  9
$AUPREC
 70
     0
  9
$MENU
  1
acad
  9
$ELEVATION
 40
0.0
  9
$THICKNESS
 40
0.0
  9
$VIEWDIR
 10
0.0
 20
0.0
 30
1.0
  9
$LIMCHECK
 70
     0
  9
$BLIPMODE
 70
     1
  9
$CHAMFERA
 40
0.0
  9
$CHAMFERB
 40
0.0
  9
$FASTZOOM
 70
     1
  9
$SKPOLY
 70
     0
  9
$TDCREATE
 40
0.0
  9
$TDUPDATE
 40
0.0
  9
$TDINDWG
 40
0.0
  9
$TDUSRTIMER
 40
0.0
  9
$USRTIMER
 70
     1
  9
$ANGBASE
 50
0.0
  9
$ANGDIR
 70
     0
  9
$PDMODE
 70
     0
  9
$PDSIZE
 40
0.0
  9
$PLINEWID
 40
0.0
  9
$COORDS
 70
     1
  9
$SPLFRAME
 70
     0
  9
$SPLINESEGS
 70
    10
  9
$ATTDIA
 70
     0
  9
$ATTREQ
 70
     1
  9
$USERI1
 70
     0
  9
$USERI2
 70
     0
  9
$USERI3
 70
     0
  9
$USERI4
 70
     0
  9
$USERI5
 70
     0
  9
$USERR1
 40
0.0
  9
$USERR2
 40
0.0
  9
$USERR3
 40
0.0
  9
$USERR4
 40
0.0
  9
$USERR5
 40
0.0
  0
ENDSEC
  0
SECTION
  2
TABLES
  0
TABLE
  2
LTYPE
 70
    11
  0
LTYPE
  2
CONTINUOUS
 70
     0
  3
Solid line
 72
    65
 73
     0
 40
0.0
  0
LTYPE
  2
DASHED
 70
     0
  3
__ __ __ __ __ __ __ __ __ __ __ __ __ __ __
 72
    65
 73
     2
 40
0.75
 49
0.5
 49
-0.25
  0
LTYPE
  2
HIDDEN
 70
     0
  3
_ _ _ _ _ _ _ _ _ _ _ _ _ _ _ _ _ _ _ _ _ _ 
 72
    65
 73
     2
 40
0.25
 49
0.125
 49
-0.125
  0
LTYPE
  2
CENTER
 70
     0
  3
____ _ ____ _ ____ _ ____ _ ____ _ ____ _ __
 72
    65
 73
     4
 40
2.0
 49
1.25
 49
-0.25
 49
0.25
 49
-0.25
  0
LTYPE
  2
PHANTOM
 70
     0
  3
_____ _ _ _____ _ _ _____ _ _ _____ _ _ ____
 72
    65
 73
     6
 40
2.5
 49
1.25
 49
-0.25
 49
0.25
 49
-0.25
 49
0.25
 49
-0.25
  0
LTYPE
  2
DOT
 70
     0
  3
............................................
 72
    65
 73
     2
 40
0.25
 49
0.0
 49
-0.25
  0
LTYPE
  2
DASHDOT
 70
     0
  3
__ . __ . __ . __ . __ . __ . __ . __ . __ .
 72
    65
 73
     4
 40
1.0
 49
0.5
 49
-0.25
 49
0.0
 49
-0.25
  0
LTYPE
  2
BORDER
 70
     0
  3
__ __ . __ __ . __ __ . __ __ . __ __ . __ _
 72
    65
 73
     6
 40
1.75
 49
0.5
 49
-0.25
 49
0.5
 49
-0.25
 49
0.0
 49
-0.25
  0
LTYPE
  2
DIVIDE
 70
     0
  3
__ . . __ . . __ . . __ . . __ . . __ . . __
 72
    65
 73
     6
 40
1.25
 49
0.5
 49
-0.25
 49
0.0
 49
-0.25
 49
0.0
 49
-0.25
  0
LTYPE
  2
DOTS
 70
     0
  3
close                                       
 72
    65
 73
     2
 40
0.1
 49
0.05
 49
-0.05
  0
LTYPE
  2
CLOSE
 70
     0
  3
                                            
 72
    65
 73
     0
 40
0.0
  0
ENDTAB
  0
TABLE
  2
LAYER
 70
     6
  0
LAYER
  2
0
 70
     0
 62
     7
  6
CONTINUOUS
  0
LAYER
  2
LAYER01
 70
     0
 62
     7
  6
CONTINUOUS
  0
LAYER
  2
DATA
 70
     0
 62
     7
  6
CONTINUOUS
  0
LAYER
  2
DIMENSIONS
 70
     0
 62
     7
  6
CONTINUOUS
  0
LAYER
  2
SPEC
 70
     0
 62
     7
  6
CONTINUOUS
  0
LAYER
  2
HIBINO-BASE
 70
     0
 62
     7
  6
CONTINUOUS
  0
ENDTAB
  0
TABLE
  2
STYLE
 70
     2
  0
STYLE
  2
STANDARD
 70
     0
 40
0.0
 41
1.0
 50
0.0
 71
     0
 42
0.2
  3
txt
  4

  0
STYLE
  2
TTF_DEFAULT
 70
     0
 40
0.0
 41
1.0
 50
0.0
 71
     0
 42
0.0
  3
txt
  4
BIGFONT
  0
ENDTAB
  0
TABLE
  2
VIEW
 70
     0
  0
ENDTAB
  0
ENDSEC
  0
SECTION
  2
BLOCKS
  0
ENDSEC
  0
SECTION
  2
ENTITIES
  0
LINE
  8
SPEC
  6
CONTINUOUS
 62
     7
 10
262.5
 20
3975.0
 11
2387.5
 21
3975.0
  0
LINE
  8
SPEC
  6
CONTINUOUS
 62
     7
 10
262.5
 20
3918.75
 11
2387.5
 21
3918.75
  0
LINE
  8
SPEC
  6
CONTINUOUS
 62
     7
 10
262.5
 20
3806.25
 11
2387.5
 21
3806.25
  0
TEXT
  8
SPEC
  6
CONTINUOUS
 62
     7
 10
853.125
 20
3759.375
 40
37.5
  1
マイク入力：-127.5dBu以下 (20Hz～20kHz bandwidth , 無負荷 , 150Ω)
  7
TTF_DEFAULT
  0
TEXT
  8
SPEC
  6
CONTINUOUS
 62
     7
 10
853.125
 20
3714.375
 40
37.5
  1
MIX出力：-80dBu (20Hz～20kHz bandwidth , 無負荷 , 16ch routed)
  7
TTF_DEFAULT
  0
TEXT
  8
SPEC
  6
CONTINUOUS
 62
     7
 10
853.125
 20
3669.375
 40
37.5
  1
AUX出力：-78dBu (20Hz～20kHz bandwidth , 無負荷 , 16ch routed)
  7
TTF_DEFAULT
  0
LINE
  8
SPEC
  6
CONTINUOUS
 62
     7
 10
262.5
 20
3637.5
 11
2387.5
 21
3637.5
  0
TEXT
  8
SPEC
  6
CONTINUOUS
 62
     7
 10
853.125
 20
3500.625
 40
37.5
  1
入力チャンネル　パンポット（アイソレーション）：90dB以上 (1kHz)
  7
TTF_DEFAULT
  0
TEXT
  8
SPEC
  6
CONTINUOUS
 62
     7
 10
853.125
 20
3590.625
 40
37.5
  1
入力チャンネル　ミュート：95dB以上 (1kHz)
  7
TTF_DEFAULT
  0
TEXT
  8
SPEC
  6
CONTINUOUS
 62
     7
 10
853.125
 20
3545.625
 40
37.5
  1
入力フェーダー　アッテネーション：80dB以上 (1kHz)
  7
TTF_DEFAULT
  0
TEXT
  8
SPEC
  6
CONTINUOUS
 62
     7
 10
853.125
 20
3455.625
 40
37.5
  1
入力チャンネル　ルーティング：95dB以上 (1kHz)
  7
TTF_DEFAULT
  0
TEXT
  8
SPEC
  6
CONTINUOUS
 62
     7
 10
853.125
 20
3410.625
 40
37.5
  1
入力チャンネル　AUX出力　アッテネーション：85dB以上 (1kHz)
  7
TTF_DEFAULT
  0
TEXT
  8
SPEC
  6
CONTINUOUS
 62
     7
 10
853.125
 20
3826.875
 40
37.5
  1
ライン入力→グループ又はミックス出力：0.02%以下 (+20dBu , 10kHz)
  7
TTF_DEFAULT
  0
TEXT
  8
SPEC
  6
CONTINUOUS
 62
     7
 10
853.125
 20
3871.875
 40
37.5
  1
ライン入力→グループ又はミックス出力：0.005%以下 (+20dBu , 1kHz)
  7
TTF_DEFAULT
  0
TEXT
  8
SPEC
  6
CONTINUOUS
 62
     7
 10
853.125
 20
3928.125
 40
37.5
  1
マイク／ ライン入力 (0dB) →各出力 (0dB) : +0/-0.5dB (20Hz～20kHz)
  7
TTF_DEFAULT
  0
LINE
  8
SPEC
  6
CONTINUOUS
 62
     7
 10
262.5
 20
3356.25
 11
2387.5
 21
3356.25
  0
LINE
  8
SPEC
  6
CONTINUOUS
 62
     7
 10
262.5
 20
3187.5
 11
2387.5
 21
3187.5
  0
TEXT
  8
SPEC
  6
CONTINUOUS
 62
     7
 10
853.125
 20
3005.625
 40
37.5
  1
モノ入力インサート、ダイレクト出力：+20dBu (2kΩ)
  7
TTF_DEFAULT
  0
LINE
  8
SPEC
  6
CONTINUOUS
 62
     7
 10
262.5
 20
2962.5
 11
2387.5
 21
2962.5
  0
TEXT
  8
SPEC
  6
CONTINUOUS
 62
     7
 10
853.125
 20
2780.625
 40
37.5
  1
モノ入力インサート、ダイレクト出力：-2dBu (アンバランス)
  7
TTF_DEFAULT
  0
TEXT
  8
SPEC
  6
CONTINUOUS
 62
     7
 10
853.125
 20
2735.625
 40
37.5
  1
グループ、ミックス　インサート：-8dBu (アンバランス)
  7
TTF_DEFAULT
  0
TEXT
  8
SPEC
  6
CONTINUOUS
 62
     7
 10
853.125
 20
2645.625
 40
37.5
  1
グループ、ミックス出力：+4dBu又は-10dBV (ミックス出力、バランス）
  7
TTF_DEFAULT
  0
LINE
  8
SPEC
  6
CONTINUOUS
 62
     7
 10
262.5
 20
2596.875
 11
2387.5
 21
2596.875
  0
POLYLINE
  8
HIBINO-BASE
  6
CONTINUOUS
 62
     7
 66
     1
 70
     1
 40
5.0
 41
5.0
  0
VERTEX
  8
HIBINO-BASE
 10
150.0
 20
225.0
  0
VERTEX
  8
HIBINO-BASE
 10
150.0
 20
4125.0
  0
VERTEX
  8
HIBINO-BASE
 10
2850.0
 20
4125.0
  0
VERTEX
  8
HIBINO-BASE
 10
2850.0
 20
225.0
  0
SEQEND
  8
HIBINO-BASE
  0
TEXT
  8
SPEC
  6
CONTINUOUS
 62
     7
 10
853.125
 20
2505.0
 40
37.5
  1
16chインプット : 768(W)×219(H)×577(D)mm / 開口 732×580
  7
TTF_DEFAULT
  0
TEXT
  8
SPEC
  6
CONTINUOUS
 62
     7
 10
853.125
 20
2550.0
 40
37.5
  1
8chインプット : 518(W)×219(H)×577(D)mm / 開口 482×580
  7
TTF_DEFAULT
  0
LINE
  8
SPEC
  6
CONTINUOUS
 62
     7
 10
262.5
 20
2442.1875
 11
2387.5
 21
2442.1875
  0
LINE
  8
DATA
  6
CONTINUOUS
 62
     7
 10
1400.0
 20
1500.0
 11
1491.999998
 21
1500.0
  0
LINE
  8
DIMENSIONS
  6
CONTINUOUS
 62
     7
 10
1400.0
 20
1400.0
 11
1491.999998
 21
1400.0
  0
LINE
  8
DIMENSIONS
  6
CONTINUOUS
 62
     7
 10
1461.999998
 20
1395.0002
 11
1491.999998
 21
1400.0
  0
LINE
  8
DIMENSIONS
  6
CONTINUOUS
 62
     7
 10
1461.999998
 20
1404.9998
 11
1491.999998
 21
1400.0
  0
LINE
  8
DATA
  6
CONTINUOUS
 62
     7
 10
1400.0
 20
2077.0
 11
1619.0
 21
2077.0
  0
LINE
  8
DIMENSIONS
  6
CONTINUOUS
 62
     7
 10
1619.0
 20
2200.0
 11
1400.0
 21
2200.0
  0
LINE
  8
DIMENSIONS
  6
CONTINUOUS
 62
     7
 10
1400.0
 20
2092.0
 11
1400.0
 21
2218.75
  0
LINE
  8
DATA
  6
CONTINUOUS
 62
     7
 10
400.0
 20
1500.0
 11
1168.0
 21
1500.0
  0
CIRCLE
  8
DATA
  6
CONTINUOUS
 62
     7
 10
689.8572
 20
1997.025752
 40
7.5
  0
CIRCLE
  8
DATA
  6
CONTINUOUS
 62
     7
 10
689.8572
 20
1975.0354
 40
7.5
  0
CIRCLE
  8
DATA
  6
CONTINUOUS
 62
     7
 10
689.8572
 20
1953.045037
 40
7.5
  0
CIRCLE
  8
DATA
  6
CONTINUOUS
 62
     7
 10
689.8572
 20
1931.054685
 40
7.5
  0
CIRCLE
  8
DATA
  6
CONTINUOUS
 62
     7
 10
689.8572
 20
1909.064382
 40
7.5
  0
CIRCLE
  8
DATA
  6
CONTINUOUS
 62
     7
 10
689.8572
 20
1887.074019
 40
7.5
  0
CIRCLE
  8
DATA
  6
CONTINUOUS
 62
     7
 10
689.8572
 20
1842.093757
 40
7.5
  0
CIRCLE
  8
DATA
  6
CONTINUOUS
 62
     7
 10
689.8572
 20
1815.105625
 40
7.5
  0
CIRCLE
  8
DATA
  6
CONTINUOUS
 62
     7
 10
689.8572
 20
1793.115214
 40
7.5
  0
CIRCLE
  8
DATA
  6
CONTINUOUS
 62
     7
 10
689.8572
 20
1771.12491
 40
7.5
  0
CIRCLE
  8
DATA
  6
CONTINUOUS
 62
     7
 10
689.8572
 20
1749.134558
 40
7.5
  0
CIRCLE
  8
DATA
  6
CONTINUOUS
 62
     7
 10
689.870483
 20
1727.144196
 40
7.5
  0
CIRCLE
  8
DATA
  6
CONTINUOUS
 62
     7
 10
689.8572
 20
1705.153844
 40
7.5
  0
CIRCLE
  8
DATA
  6
CONTINUOUS
 62
     7
 10
689.8572
 20
2042.006024
 40
7.5
  0
LINE
  8
DATA
  6
CONTINUOUS
 62
     7
 10
675.62
 20
1095.0
 11
1142.38
 21
1095.0
  0
LINE
  8
DATA
  6
CONTINUOUS
 62
     7
 10
425.62
 20
881.0
 11
1142.38
 21
881.0
  0
LINE
  8
DATA
  6
CONTINUOUS
 62
     7
 10
425.62
 20
1008.0
 11
1142.38
 21
1008.0
  0
LINE
  8
DATA
  6
CONTINUOUS
 62
     7
 10
400.0
 20
2077.0
 11
1168.0
 21
2077.0
  0
LINE
  8
DIMENSIONS
  6
CONTINUOUS
 62
     7
 10
650.0
 20
1400.0
 11
1168.0
 21
1400.0
  0
LINE
  8
DIMENSIONS
  6
CONTINUOUS
 62
     7
 10
1168.0
 20
1300.0
 11
400.0
 21
1300.0
  0
LINE
  8
DIMENSIONS
  6
CONTINUOUS
 62
     7
 10
1145.38
 20
700.0
 11
422.62
 21
700.0
  0
LINE
  8
DIMENSIONS
  6
CONTINUOUS
 62
     7
 10
1145.38
 20
800.0
 11
672.62
 21
800.0
  0
LINE
  8
DIMENSIONS
  6
CONTINUOUS
 62
     7
 10
702.62
 20
804.9998
 11
672.62
 21
800.0
  0
LINE
  8
DIMENSIONS
  6
CONTINUOUS
 62
     7
 10
702.62
 20
795.0002
 11
672.62
 21
800.0
  0
TEXT
  8
HIBINO-BASE
  6
CONTINUOUS
 62
     7
 10
257.76
 20
128.8698
 40
60.0
  1
Hibino Corporation
  7
TTF_DEFAULT
  0
LINE
  8
DATA
  6
CONTINUOUS
 62
     7
 10
675.62
 20
881.0
 11
675.62
 21
1100.0
  0
LINE
  8
DATA
  6
CONTINUOUS
 62
     7
 10
425.62
 20
881.0
 11
425.62
 21
1100.0
  0
LINE
  8
DIMENSIONS
  6
CONTINUOUS
 62
     7
 10
422.62
 20
1035.0
 11
422.62
 21
681.25
  0
LINE
  8
DIMENSIONS
  6
CONTINUOUS
 62
     7
 10
672.62
 20
1035.0
 11
672.62
 21
781.25
  0
LINE
  8
DIMENSIONS
  6
CONTINUOUS
 62
     7
 10
300.0
 20
1100.0
 11
300.0
 21
881.0
  0
TEXT
  8
DIMENSIONS
  6
CONTINUOUS
 62
     7
 10
281.25
 20
961.060143
 40
37.5
  1
219
 50
90.0
  7
TTF_DEFAULT
  0
LINE
  8
DIMENSIONS
  6
CONTINUOUS
 62
     7
 10
410.62
 20
881.0
 11
281.25
 21
881.0
  0
LINE
  8
DIMENSIONS
  6
CONTINUOUS
 62
     7
 10
452.62
 20
704.9998
 11
422.62
 21
700.0
  0
LINE
  8
DIMENSIONS
  6
CONTINUOUS
 62
     7
 10
452.62
 20
695.0002
 11
422.62
 21
700.0
  0
LINE
  8
DIMENSIONS
  6
CONTINUOUS
 62
     7
 10
295.0002
 20
911.0
 11
300.0
 21
881.0
  0
LINE
  8
DIMENSIONS
  6
CONTINUOUS
 62
     7
 10
304.9998
 20
911.0
 11
300.0
 21
881.0
  0
LINE
  8
DIMENSIONS
  6
CONTINUOUS
 62
     7
 10
385.0
 20
1500.0
 11
281.25
 21
1500.0
  0
LINE
  8
DIMENSIONS
  6
CONTINUOUS
 62
     7
 10
385.0
 20
2077.0
 11
281.25
 21
2077.0
  0
LINE
  8
DIMENSIONS
  6
CONTINUOUS
 62
     7
 10
384.62
 20
1100.0
 11
281.25
 21
1100.0
  0
TEXT
  8
DIMENSIONS
  6
CONTINUOUS
 62
     7
 10
281.25
 20
1759.060143
 40
37.5
  1
577
 50
90.0
  7
TTF_DEFAULT
  0
LINE
  8
DATA
  6
CONTINUOUS
 62
     7
 10
400.0
 20
1500.0
 11
400.0
 21
2077.0
  0
LINE
  8
DATA
  6
CONTINUOUS
 62
     7
 10
673.0
 20
1500.0
 11
673.0
 21
2077.0
  0
LINE
  8
DATA
  6
CONTINUOUS
 62
     7
 10
650.0
 20
1500.0
 11
650.0
 21
2077.0
  0
LINE
  8
DATA
  6
CONTINUOUS
 62
     7
 10
423.0
 20
1500.0
 11
423.0
 21
2077.0
  0
LINE
  8
DIMENSIONS
  6
CONTINUOUS
 62
     7
 10
300.0
 20
1500.0
 11
300.0
 21
2077.0
  0
LINE
  8
DATA
  6
CONTINUOUS
 62
     7
 10
650.0
 20
1097.0
 11
650.0
 21
1100.0
  0
LINE
  8
DATA
  6
CONTINUOUS
 62
     7
 10
672.62
 20
1050.0
 11
672.62
 21
1097.0
  0
LINE
  8
DATA
  6
CONTINUOUS
 62
     7
 10
650.0
 20
1097.0
 11
672.62
 21
1097.0
  0
LINE
  8
DATA
  6
CONTINUOUS
 62
     7
 10
650.0
 20
1100.0
 11
675.62
 21
1100.0
  0
LINE
  8
DATA
  6
CONTINUOUS
 62
     7
 10
672.62
 20
1050.0
 11
675.62
 21
1050.0
  0
LINE
  8
DATA
  6
CONTINUOUS
 62
     7
 10
422.62
 20
1050.0
 11
422.62
 21
1097.0
  0
LINE
  8
DATA
  6
CONTINUOUS
 62
     7
 10
422.62
 20
1050.0
 11
425.62
 21
1050.0
  0
LINE
  8
DATA
  6
CONTINUOUS
 62
     7
 10
399.62
 20
1097.0
 11
399.62
 21
1100.0
  0
LINE
  8
DATA
  6
CONTINUOUS
 62
     7
 10
422.62
 20
1097.0
 11
399.62
 21
1097.0
  0
LINE
  8
DATA
  6
CONTINUOUS
 62
     7
 10
399.62
 20
1100.0
 11
425.62
 21
1100.0
  0
LINE
  8
DATA
  6
CONTINUOUS
 62
     7
 10
425.62
 20
1095.0
 11
672.62
 21
1095.0
  0
LINE
  8
DIMENSIONS
  6
CONTINUOUS
 62
     7
 10
304.9998
 20
1530.0
 11
300.0
 21
1500.0
  0
LINE
  8
DIMENSIONS
  6
CONTINUOUS
 62
     7
 10
295.0002
 20
1530.0
 11
300.0
 21
1500.0
  0
LINE
  8
DIMENSIONS
  6
CONTINUOUS
 62
     7
 10
650.0
 20
1485.0
 11
650.0
 21
1381.25
  0
LINE
  8
DIMENSIONS
  6
CONTINUOUS
 62
     7
 10
680.0
 20
1395.0002
 11
650.0
 21
1400.0
  0
LINE
  8
DIMENSIONS
  6
CONTINUOUS
 62
     7
 10
680.0
 20
1404.9998
 11
650.0
 21
1400.0
  0
LINE
  8
DIMENSIONS
  6
CONTINUOUS
 62
     7
 10
400.0
 20
1485.0
 11
400.0
 21
1281.25
  0
LINE
  8
DIMENSIONS
  6
CONTINUOUS
 62
     7
 10
430.0
 20
1304.9998
 11
400.0
 21
1300.0
  0
LINE
  8
DIMENSIONS
  6
CONTINUOUS
 62
     7
 10
430.0
 20
1295.0002
 11
400.0
 21
1300.0
  0
LINE
  8
DIMENSIONS
  6
CONTINUOUS
 62
     7
 10
295.0002
 20
1070.0
 11
300.0
 21
1100.0
  0
LINE
  8
DIMENSIONS
  6
CONTINUOUS
 62
     7
 10
304.9998
 20
1070.0
 11
300.0
 21
1100.0
  0
LINE
  8
DIMENSIONS
  6
CONTINUOUS
 62
     7
 10
304.9998
 20
2047.0
 11
300.0
 21
2077.0
  0
LINE
  8
DIMENSIONS
  6
CONTINUOUS
 62
     7
 10
295.0002
 20
2047.0
 11
300.0
 21
2077.0
  0
LINE
  8
DATA
  6
CONTINUOUS
 62
     7
 10
1142.38
 20
881.0
 11
1142.38
 21
1100.0
  0
LINE
  8
DIMENSIONS
  6
CONTINUOUS
 62
     7
 10
1145.38
 20
1035.0
 11
1145.38
 21
681.25
  0
TEXT
  8
DIMENSIONS
  6
CONTINUOUS
 62
     7
 10
806.900295
 20
718.75
 40
37.5
  1
722.8 (16input)
  7
TTF_DEFAULT
  0
TEXT
  8
DIMENSIONS
  6
CONTINUOUS
 62
     7
 10
806.900295
 20
818.75
 40
37.5
  1
472.8 (8input)
  7
TTF_DEFAULT
  0
TEXT
  8
DIMENSIONS
  6
CONTINUOUS
 62
     7
 10
1275.0
 20
393.75
 40
37.5
  1
(単位 : mm)
  7
TTF_DEFAULT
  0
LINE
  8
DIMENSIONS
  6
CONTINUOUS
 62
     7
 10
1115.38
 20
704.9998
 11
1145.38
 21
700.0
  0
LINE
  8
DIMENSIONS
  6
CONTINUOUS
 62
     7
 10
1115.38
 20
695.0002
 11
1145.38
 21
700.0
  0
LINE
  8
DIMENSIONS
  6
CONTINUOUS
 62
     7
 10
1115.38
 20
804.9998
 11
1145.38
 21
800.0
  0
LINE
  8
DIMENSIONS
  6
CONTINUOUS
 62
     7
 10
1115.38
 20
795.0002
 11
1145.38
 21
800.0
  0
LINE
  8
DATA
  6
CONTINUOUS
 62
     7
 10
706.7143
 20
1500.0
 11
706.7143
 21
2077.0
  0
LINE
  8
DATA
  6
CONTINUOUS
 62
     7
 10
740.4286
 20
1500.0
 11
740.4286
 21
2077.0
  0
LINE
  8
DATA
  6
CONTINUOUS
 62
     7
 10
774.1429
 20
1500.0
 11
774.1429
 21
2077.0
  0
LINE
  8
DATA
  6
CONTINUOUS
 62
     7
 10
807.8572
 20
2077.0
 11
807.8572
 21
1500.0
  0
LINE
  8
DATA
  6
CONTINUOUS
 62
     7
 10
841.5715
 20
2077.0
 11
841.5715
 21
1500.0
  0
LINE
  8
DATA
  6
CONTINUOUS
 62
     7
 10
875.2858
 20
1500.0
 11
875.2858
 21
2077.0
  0
LINE
  8
DATA
  6
CONTINUOUS
 62
     7
 10
909.0001
 20
1500.0
 11
909.0001
 21
2077.0
  0
LINE
  8
DATA
  6
CONTINUOUS
 62
     7
 10
942.7144
 20
1500.0
 11
942.7144
 21
2077.0
  0
LINE
  8
DATA
  6
CONTINUOUS
 62
     7
 10
976.4287
 20
1500.0
 11
976.4287
 21
2077.0
  0
LINE
  8
DATA
  6
CONTINUOUS
 62
     7
 10
1010.143
 20
1500.0
 11
1010.143
 21
2077.0
  0
LINE
  8
DATA
  6
CONTINUOUS
 62
     7
 10
1043.8573
 20
1500.0
 11
1043.8573
 21
2077.0
  0
LINE
  8
DATA
  6
CONTINUOUS
 62
     7
 10
1077.5716
 20
1500.0
 11
1077.5716
 21
2077.0
  0
TEXT
  8
DIMENSIONS
  6
CONTINUOUS
 62
     7
 10
806.900295
 20
1418.75
 40
37.5
  1
518 (8input)
  7
TTF_DEFAULT
  0
TEXT
  8
DIMENSIONS
  6
CONTINUOUS
 62
     7
 10
806.900295
 20
1318.75
 40
37.5
  1
768 (16input)
  7
TTF_DEFAULT
  0
CIRCLE
  8
DATA
  6
CONTINUOUS
 62
     7
 10
925.8573
 20
1997.025752
 40
7.5
  0
CIRCLE
  8
DATA
  6
CONTINUOUS
 62
     7
 10
892.143
 20
1997.025752
 40
7.5
  0
CIRCLE
  8
DATA
  6
CONTINUOUS
 62
     7
 10
858.4287
 20
1997.025752
 40
7.5
  0
CIRCLE
  8
DATA
  6
CONTINUOUS
 62
     7
 10
824.7144
 20
1997.025752
 40
7.5
  0
CIRCLE
  8
DATA
  6
CONTINUOUS
 62
     7
 10
791.0001
 20
1997.025752
 40
7.5
  0
CIRCLE
  8
DATA
  6
CONTINUOUS
 62
     7
 10
757.2858
 20
1997.025752
 40
7.5
  0
CIRCLE
  8
DATA
  6
CONTINUOUS
 62
     7
 10
723.5715
 20
1997.025752
 40
7.5
  0
CIRCLE
  8
DATA
  6
CONTINUOUS
 62
     7
 10
925.8573
 20
1975.0354
 40
7.5
  0
CIRCLE
  8
DATA
  6
CONTINUOUS
 62
     7
 10
925.8573
 20
1953.045037
 40
7.5
  0
CIRCLE
  8
DATA
  6
CONTINUOUS
 62
     7
 10
925.8573
 20
1931.054685
 40
7.5
  0
CIRCLE
  8
DATA
  6
CONTINUOUS
 62
     7
 10
925.8573
 20
1909.064382
 40
7.5
  0
CIRCLE
  8
DATA
  6
CONTINUOUS
 62
     7
 10
925.8573
 20
1887.074019
 40
7.5
  0
CIRCLE
  8
DATA
  6
CONTINUOUS
 62
     7
 10
925.8573
 20
1842.093757
 40
7.5
  0
CIRCLE
  8
DATA
  6
CONTINUOUS
 62
     7
 10
925.8573
 20
1815.105625
 40
7.5
  0
CIRCLE
  8
DATA
  6
CONTINUOUS
 62
     7
 10
925.8573
 20
1793.115214
 40
7.5
  0
CIRCLE
  8
DATA
  6
CONTINUOUS
 62
     7
 10
925.8573
 20
1771.12491
 40
7.5
  0
CIRCLE
  8
DATA
  6
CONTINUOUS
 62
     7
 10
925.8573
 20
1749.134558
 40
7.5
  0
CIRCLE
  8
DATA
  6
CONTINUOUS
 62
     7
 10
925.870583
 20
1727.144196
 40
7.5
  0
CIRCLE
  8
DATA
  6
CONTINUOUS
 62
     7
 10
925.8573
 20
1705.153844
 40
7.5
  0
CIRCLE
  8
DATA
  6
CONTINUOUS
 62
     7
 10
892.143
 20
1975.0354
 40
7.5
  0
CIRCLE
  8
DATA
  6
CONTINUOUS
 62
     7
 10
892.143
 20
1953.045037
 40
7.5
  0
CIRCLE
  8
DATA
  6
CONTINUOUS
 62
     7
 10
892.143
 20
1931.054685
 40
7.5
  0
CIRCLE
  8
DATA
  6
CONTINUOUS
 62
     7
 10
892.143
 20
1909.064382
 40
7.5
  0
CIRCLE
  8
DATA
  6
CONTINUOUS
 62
     7
 10
892.143
 20
1887.074019
 40
7.5
  0
CIRCLE
  8
DATA
  6
CONTINUOUS
 62
     7
 10
892.143
 20
1842.093757
 40
7.5
  0
CIRCLE
  8
DATA
  6
CONTINUOUS
 62
     7
 10
892.143
 20
1815.105625
 40
7.5
  0
CIRCLE
  8
DATA
  6
CONTINUOUS
 62
     7
 10
892.143
 20
1793.115214
 40
7.5
  0
CIRCLE
  8
DATA
  6
CONTINUOUS
 62
     7
 10
892.143
 20
1771.12491
 40
7.5
  0
CIRCLE
  8
DATA
  6
CONTINUOUS
 62
     7
 10
892.143
 20
1749.134558
 40
7.5
  0
CIRCLE
  8
DATA
  6
CONTINUOUS
 62
     7
 10
892.156283
 20
1727.144196
 40
7.5
  0
CIRCLE
  8
DATA
  6
CONTINUOUS
 62
     7
 10
892.143
 20
1705.153844
 40
7.5
  0
CIRCLE
  8
DATA
  6
CONTINUOUS
 62
     7
 10
858.4287
 20
1975.0354
 40
7.5
  0
CIRCLE
  8
DATA
  6
CONTINUOUS
 62
     7
 10
858.4287
 20
1953.045037
 40
7.5
  0
CIRCLE
  8
DATA
  6
CONTINUOUS
 62
     7
 10
858.4287
 20
1931.054685
 40
7.5
  0
CIRCLE
  8
DATA
  6
CONTINUOUS
 62
     7
 10
858.4287
 20
1909.064382
 40
7.5
  0
CIRCLE
  8
DATA
  6
CONTINUOUS
 62
     7
 10
858.4287
 20
1887.074019
 40
7.5
  0
CIRCLE
  8
DATA
  6
CONTINUOUS
 62
     7
 10
858.4287
 20
1842.093757
 40
7.5
  0
CIRCLE
  8
DATA
  6
CONTINUOUS
 62
     7
 10
858.4287
 20
1815.105625
 40
7.5
  0
CIRCLE
  8
DATA
  6
CONTINUOUS
 62
     7
 10
858.4287
 20
1793.115214
 40
7.5
  0
CIRCLE
  8
DATA
  6
CONTINUOUS
 62
     7
 10
858.4287
 20
1771.12491
 40
7.5
  0
CIRCLE
  8
DATA
  6
CONTINUOUS
 62
     7
 10
858.4287
 20
1749.134558
 40
7.5
  0
CIRCLE
  8
DATA
  6
CONTINUOUS
 62
     7
 10
858.441983
 20
1727.144196
 40
7.5
  0
CIRCLE
  8
DATA
  6
CONTINUOUS
 62
     7
 10
858.4287
 20
1705.153844
 40
7.5
  0
CIRCLE
  8
DATA
  6
CONTINUOUS
 62
     7
 10
824.7144
 20
1975.0354
 40
7.5
  0
CIRCLE
  8
DATA
  6
CONTINUOUS
 62
     7
 10
824.7144
 20
1953.045037
 40
7.5
  0
CIRCLE
  8
DATA
  6
CONTINUOUS
 62
     7
 10
824.7144
 20
1931.054685
 40
7.5
  0
CIRCLE
  8
DATA
  6
CONTINUOUS
 62
     7
 10
824.7144
 20
1909.064382
 40
7.5
  0
CIRCLE
  8
DATA
  6
CONTINUOUS
 62
     7
 10
824.7144
 20
1887.074019
 40
7.5
  0
CIRCLE
  8
DATA
  6
CONTINUOUS
 62
     7
 10
824.7144
 20
1842.093757
 40
7.5
  0
CIRCLE
  8
DATA
  6
CONTINUOUS
 62
     7
 10
824.7144
 20
1815.105625
 40
7.5
  0
CIRCLE
  8
DATA
  6
CONTINUOUS
 62
     7
 10
824.7144
 20
1793.115214
 40
7.5
  0
CIRCLE
  8
DATA
  6
CONTINUOUS
 62
     7
 10
824.7144
 20
1771.12491
 40
7.5
  0
CIRCLE
  8
DATA
  6
CONTINUOUS
 62
     7
 10
824.7144
 20
1749.134558
 40
7.5
  0
CIRCLE
  8
DATA
  6
CONTINUOUS
 62
     7
 10
824.727683
 20
1727.144196
 40
7.5
  0
CIRCLE
  8
DATA
  6
CONTINUOUS
 62
     7
 10
824.7144
 20
1705.153844
 40
7.5
  0
CIRCLE
  8
DATA
  6
CONTINUOUS
 62
     7
 10
791.0001
 20
1975.0354
 40
7.5
  0
CIRCLE
  8
DATA
  6
CONTINUOUS
 62
     7
 10
791.0001
 20
1953.045037
 40
7.5
  0
CIRCLE
  8
DATA
  6
CONTINUOUS
 62
     7
 10
791.0001
 20
1931.054685
 40
7.5
  0
CIRCLE
  8
DATA
  6
CONTINUOUS
 62
     7
 10
791.0001
 20
1909.064382
 40
7.5
  0
CIRCLE
  8
DATA
  6
CONTINUOUS
 62
     7
 10
791.0001
 20
1887.074019
 40
7.5
  0
CIRCLE
  8
DATA
  6
CONTINUOUS
 62
     7
 10
791.0001
 20
1842.093757
 40
7.5
  0
CIRCLE
  8
DATA
  6
CONTINUOUS
 62
     7
 10
791.0001
 20
1815.105625
 40
7.5
  0
CIRCLE
  8
DATA
  6
CONTINUOUS
 62
     7
 10
791.0001
 20
1793.115214
 40
7.5
  0
CIRCLE
  8
DATA
  6
CONTINUOUS
 62
     7
 10
791.0001
 20
1771.12491
 40
7.5
  0
CIRCLE
  8
DATA
  6
CONTINUOUS
 62
     7
 10
791.0001
 20
1749.134558
 40
7.5
  0
CIRCLE
  8
DATA
  6
CONTINUOUS
 62
     7
 10
791.013383
 20
1727.144196
 40
7.5
  0
CIRCLE
  8
DATA
  6
CONTINUOUS
 62
     7
 10
791.0001
 20
1705.153844
 40
7.5
  0
CIRCLE
  8
DATA
  6
CONTINUOUS
 62
     7
 10
757.2858
 20
1975.0354
 40
7.5
  0
CIRCLE
  8
DATA
  6
CONTINUOUS
 62
     7
 10
757.2858
 20
1953.045037
 40
7.5
  0
CIRCLE
  8
DATA
  6
CONTINUOUS
 62
     7
 10
757.2858
 20
1931.054685
 40
7.5
  0
CIRCLE
  8
DATA
  6
CONTINUOUS
 62
     7
 10
757.2858
 20
1909.064382
 40
7.5
  0
CIRCLE
  8
DATA
  6
CONTINUOUS
 62
     7
 10
757.2858
 20
1887.074019
 40
7.5
  0
CIRCLE
  8
DATA
  6
CONTINUOUS
 62
     7
 10
757.2858
 20
1842.093757
 40
7.5
  0
CIRCLE
  8
DATA
  6
CONTINUOUS
 62
     7
 10
757.2858
 20
1815.105625
 40
7.5
  0
CIRCLE
  8
DATA
  6
CONTINUOUS
 62
     7
 10
757.2858
 20
1793.115214
 40
7.5
  0
CIRCLE
  8
DATA
  6
CONTINUOUS
 62
     7
 10
757.2858
 20
1771.12491
 40
7.5
  0
CIRCLE
  8
DATA
  6
CONTINUOUS
 62
     7
 10
757.2858
 20
1749.134558
 40
7.5
  0
CIRCLE
  8
DATA
  6
CONTINUOUS
 62
     7
 10
757.299083
 20
1727.144196
 40
7.5
  0
CIRCLE
  8
DATA
  6
CONTINUOUS
 62
     7
 10
757.2858
 20
1705.153844
 40
7.5
  0
CIRCLE
  8
DATA
  6
CONTINUOUS
 62
     7
 10
723.5715
 20
1975.0354
 40
7.5
  0
CIRCLE
  8
DATA
  6
CONTINUOUS
 62
     7
 10
723.5715
 20
1953.045037
 40
7.5
  0
CIRCLE
  8
DATA
  6
CONTINUOUS
 62
     7
 10
723.5715
 20
1931.054685
 40
7.5
  0
CIRCLE
  8
DATA
  6
CONTINUOUS
 62
     7
 10
723.5715
 20
1909.064382
 40
7.5
  0
CIRCLE
  8
DATA
  6
CONTINUOUS
 62
     7
 10
723.5715
 20
1887.074019
 40
7.5
  0
CIRCLE
  8
DATA
  6
CONTINUOUS
 62
     7
 10
723.5715
 20
1842.093757
 40
7.5
  0
CIRCLE
  8
DATA
  6
CONTINUOUS
 62
     7
 10
723.5715
 20
1815.105625
 40
7.5
  0
CIRCLE
  8
DATA
  6
CONTINUOUS
 62
     7
 10
723.5715
 20
1793.115214
 40
7.5
  0
CIRCLE
  8
DATA
  6
CONTINUOUS
 62
     7
 10
723.5715
 20
1771.12491
 40
7.5
  0
CIRCLE
  8
DATA
  6
CONTINUOUS
 62
     7
 10
723.5715
 20
1749.134558
 40
7.5
  0
CIRCLE
  8
DATA
  6
CONTINUOUS
 62
     7
 10
723.584783
 20
1727.144196
 40
7.5
  0
CIRCLE
  8
DATA
  6
CONTINUOUS
 62
     7
 10
723.5715
 20
1705.153844
 40
7.5
  0
CIRCLE
  8
DATA
  6
CONTINUOUS
 62
     7
 10
925.8573
 20
2042.006024
 40
7.5
  0
CIRCLE
  8
DATA
  6
CONTINUOUS
 62
     7
 10
892.143
 20
2042.006024
 40
7.5
  0
CIRCLE
  8
DATA
  6
CONTINUOUS
 62
     7
 10
858.4287
 20
2042.006024
 40
7.5
  0
CIRCLE
  8
DATA
  6
CONTINUOUS
 62
     7
 10
824.7144
 20
2042.006024
 40
7.5
  0
CIRCLE
  8
DATA
  6
CONTINUOUS
 62
     7
 10
791.0001
 20
2042.006024
 40
7.5
  0
CIRCLE
  8
DATA
  6
CONTINUOUS
 62
     7
 10
757.2858
 20
2042.006024
 40
7.5
  0
CIRCLE
  8
DATA
  6
CONTINUOUS
 62
     7
 10
723.5715
 20
2042.006024
 40
7.5
  0
LINE
  8
DATA
  6
CONTINUOUS
 62
     7
 10
1145.0
 20
1500.0
 11
1145.0
 21
2077.0
  0
LINE
  8
DATA
  6
CONTINUOUS
 62
     7
 10
1168.0
 20
1500.0
 11
1168.0
 21
2077.0
  0
LINE
  8
DATA
  6
CONTINUOUS
 62
     7
 10
1400.0
 20
1500.0
 11
1400.0
 21
2077.0
  0
LINE
  8
DATA
  6
CONTINUOUS
 62
     7
 10
1403.0
 20
1500.0
 11
1403.0
 21
2077.0
  0
LINE
  8
DATA
  6
CONTINUOUS
 62
     7
 10
1450.0
 20
2077.0
 11
1450.0
 21
1500.0
  0
TEXT
  8
DIMENSIONS
  6
CONTINUOUS
 62
     7
 10
1424.894669
 20
1418.75
 40
37.5
  1
92
  7
TTF_DEFAULT
  0
LINE
  8
DATA
  6
CONTINUOUS
 62
     7
 10
1168.0
 20
1097.0
 11
1168.0
 21
1100.0
  0
LINE
  8
DIMENSIONS
  6
CONTINUOUS
 62
     7
 10
1400.0
 20
1485.0
 11
1400.0
 21
1381.25
  0
LINE
  8
DIMENSIONS
  6
CONTINUOUS
 62
     7
 10
1430.0
 20
1395.0002
 11
1400.0
 21
1400.0
  0
LINE
  8
DIMENSIONS
  6
CONTINUOUS
 62
     7
 10
1430.0
 20
1404.9998
 11
1400.0
 21
1400.0
  0
LINE
  8
DATA
  6
CONTINUOUS
 62
     7
 10
1145.38
 20
1050.0
 11
1145.38
 21
1097.0
  0
LINE
  8
DATA
  6
CONTINUOUS
 62
     7
 10
1145.38
 20
1050.0
 11
1142.38
 21
1050.0
  0
LINE
  8
DATA
  6
CONTINUOUS
 62
     7
 10
1145.38
 20
1097.0
 11
1168.0
 21
1097.0
  0
LINE
  8
DATA
  6
CONTINUOUS
 62
     7
 10
1142.38
 20
1100.0
 11
1168.0
 21
1100.0
  0
CIRCLE
  8
DATA
  6
CONTINUOUS
 62
     7
 10
1435.0
 20
1546.0
 40
7.5
  0
CIRCLE
  8
DATA
  6
CONTINUOUS
 62
     7
 10
1435.0
 20
1546.0
 40
4.0
  0
LINE
  8
DIMENSIONS
  6
CONTINUOUS
 62
     7
 10
1138.0
 20
1395.0002
 11
1168.0
 21
1400.0
  0
LINE
  8
DIMENSIONS
  6
CONTINUOUS
 62
     7
 10
1138.0
 20
1404.9998
 11
1168.0
 21
1400.0
  0
LINE
  8
DIMENSIONS
  6
CONTINUOUS
 62
     7
 10
1168.0
 20
1485.0
 11
1168.0
 21
1281.25
  0
LINE
  8
DIMENSIONS
  6
CONTINUOUS
 62
     7
 10
1138.0
 20
1304.9998
 11
1168.0
 21
1300.0
  0
LINE
  8
DIMENSIONS
  6
CONTINUOUS
 62
     7
 10
1138.0
 20
1295.0002
 11
1168.0
 21
1300.0
  0
CIRCLE
  8
DATA
  6
CONTINUOUS
 62
     7
 10
1435.0
 20
2028.0
 40
7.5
  0
CIRCLE
  8
DATA
  6
CONTINUOUS
 62
     7
 10
1435.0
 20
2028.0
 40
4.0
  0
LINE
  8
DATA
  6
CONTINUOUS
 62
     7
 10
1388.852601
 20
2004.353476
 11
1388.85326
 21
1989.698028
  0
CIRCLE
  8
DATA
  6
CONTINUOUS
 62
     7
 10
1435.0
 20
1787.0
 40
7.5
  0
CIRCLE
  8
DATA
  6
CONTINUOUS
 62
     7
 10
1435.0
 20
1787.0
 40
4.0
  0
LINE
  8
DATA
  6
CONTINUOUS
 62
     7
 10
1388.855844
 20
1938.382458
 11
1400.006839
 21
1938.383071
  0
LINE
  8
DATA
  6
CONTINUOUS
 62
     7
 10
1388.857966
 20
1894.401754
 11
1400.009059
 21
1894.402346
  0
LINE
  8
DATA
  6
CONTINUOUS
 62
     7
 10
1388.858723
 20
1879.746285
 11
1400.009697
 21
1879.7468
  0
LINE
  8
DATA
  6
CONTINUOUS
 62
     7
 10
1388.860154
 20
1849.421492
 11
1400.011247
 21
1849.422084
  0
LINE
  8
DATA
  6
CONTINUOUS
 62
     7
 10
1388.860911
 20
1834.766023
 11
1400.011983
 21
1834.766517
  0
LINE
  8
DATA
  6
CONTINUOUS
 62
     7
 10
1388.861503
 20
1822.433408
 11
1400.012575
 21
1822.433903
  0
LINE
  8
DATA
  6
CONTINUOUS
 62
     7
 10
1388.862239
 20
1807.777842
 11
1400.01331
 21
1807.778336
  0
LINE
  8
DATA
  6
CONTINUOUS
 62
     7
 10
1388.862602
 20
1800.442997
 11
1400.013598
 21
1800.44361
  0
LINE
  8
DATA
  6
CONTINUOUS
 62
     7
 10
1388.863338
 20
1785.78743
 11
1400.014333
 21
1785.788043
  0
LINE
  8
DATA
  6
CONTINUOUS
 62
     7
 10
1388.863723
 20
1778.452683
 11
1400.014697
 21
1778.453199
  0
LINE
  8
DATA
  6
CONTINUOUS
 62
     7
 10
1388.863723
 20
1778.452683
 11
1388.864361
 21
1763.797138
  0
LINE
  8
DATA
  6
CONTINUOUS
 62
     7
 10
1388.862602
 20
1800.442997
 11
1388.863338
 21
1785.78743
  0
LINE
  8
DATA
  6
CONTINUOUS
 62
     7
 10
1388.861503
 20
1822.433408
 11
1388.862239
 21
1807.777842
  0
LINE
  8
DATA
  6
CONTINUOUS
 62
     7
 10
1388.860154
 20
1849.421492
 11
1388.860911
 21
1834.766023
  0
LINE
  8
DATA
  6
CONTINUOUS
 62
     7
 10
1388.857966
 20
1894.401754
 11
1388.858723
 21
1879.746285
  0
LINE
  8
DATA
  6
CONTINUOUS
 62
     7
 10
1388.856867
 20
1916.392165
 11
1388.857603
 21
1901.736599
  0
LINE
  8
DATA
  6
CONTINUOUS
 62
     7
 10
1388.855844
 20
1938.382458
 11
1388.856482
 21
1923.726912
  0
LINE
  8
DATA
  6
CONTINUOUS
 62
     7
 10
1388.854723
 20
1960.372772
 11
1388.85548
 21
1945.717302
  0
LINE
  8
DATA
  6
CONTINUOUS
 62
     7
 10
1388.853624
 20
1982.363183
 11
1388.854359
 21
1967.707616
  0
LINE
  8
DATA
  6
CONTINUOUS
 62
     7
 10
1388.854359
 20
1967.707616
 11
1400.005453
 21
1967.708208
  0
LINE
  8
DATA
  6
CONTINUOUS
 62
     7
 10
1388.854723
 20
1960.372772
 11
1400.005816
 21
1960.373364
  0
LINE
  8
DATA
  6
CONTINUOUS
 62
     7
 10
1388.85548
 20
1945.717302
 11
1400.006454
 21
1945.717818
  0
LINE
  8
DATA
  6
CONTINUOUS
 62
     7
 10
1388.864361
 20
1763.797138
 11
1400.015433
 21
1763.797632
  0
LINE
  8
DATA
  6
CONTINUOUS
 62
     7
 10
1388.864725
 20
1756.462293
 11
1400.015818
 21
1756.462885
  0
LINE
  8
DATA
  6
CONTINUOUS
 62
     7
 10
1388.865482
 20
1741.806824
 11
1400.016553
 21
1741.807318
  0
LINE
  8
DATA
  6
CONTINUOUS
 62
     7
 10
1388.865845
 20
1734.471979
 11
1400.016819
 21
1734.472495
  0
LINE
  8
DATA
  6
CONTINUOUS
 62
     7
 10
1388.866581
 20
1719.816412
 11
1400.017576
 21
1719.817026
  0
LINE
  8
DATA
  6
CONTINUOUS
 62
     7
 10
1388.866945
 20
1712.481568
 11
1400.01794
 21
1712.482181
  0
LINE
  8
DATA
  6
CONTINUOUS
 62
     7
 10
1388.85326
 20
1989.698028
 11
1400.004332
 21
1989.698522
  0
LINE
  8
DATA
  6
CONTINUOUS
 62
     7
 10
1388.853624
 20
1982.363183
 11
1400.004695
 21
1982.363677
  0
LINE
  8
DATA
  6
CONTINUOUS
 62
     7
 10
1388.865845
 20
1734.471979
 11
1388.866581
 21
1719.816412
  0
LINE
  8
DATA
  6
CONTINUOUS
 62
     7
 10
1388.864725
 20
1756.462293
 11
1388.865482
 21
1741.806824
  0
LINE
  8
DATA
  6
CONTINUOUS
 62
     7
 10
1388.856482
 20
1923.726912
 11
1400.007575
 21
1923.727504
  0
LINE
  8
DATA
  6
CONTINUOUS
 62
     7
 10
1388.856867
 20
1916.392165
 11
1400.007938
 21
1916.39266
  0
LINE
  8
DATA
  6
CONTINUOUS
 62
     7
 10
1388.857603
 20
1901.736599
 11
1400.008674
 21
1901.737093
  0
LINE
  8
DATA
  6
CONTINUOUS
 62
     7
 10
1388.866945
 20
1712.481568
 11
1388.867604
 21
1697.82612
  0
LINE
  8
DATA
  6
CONTINUOUS
 62
     7
 10
1388.867604
 20
1697.82612
 11
1400.018676
 21
1697.826614
  0
LINE
  8
DATA
  6
CONTINUOUS
 62
     7
 10
1388.852601
 20
2004.353476
 11
1400.003596
 21
2004.354089
  0
LINE
  8
DATA
  6
CONTINUOUS
 62
     7
 10
1388.850315
 20
2049.333759
 11
1388.851072
 21
2034.67829
  0
LINE
  8
DATA
  6
CONTINUOUS
 62
     7
 10
1388.851072
 20
2034.67829
 11
1400.002144
 21
2034.678784
  0
LINE
  8
DATA
  6
CONTINUOUS
 62
     7
 10
1388.850315
 20
2049.333759
 11
1400.001408
 21
2049.334351
  0
LINE
  8
SPEC
  6
CONTINUOUS
 62
     7
 10
262.5
 20
3975.0
 11
262.5
 21
2442.1875
  0
TEXT
  8
SPEC
  6
CONTINUOUS
 62
     7
 10
271.875
 20
3140.625
 40
37.5
  1
最大出力
  7
TTF_DEFAULT
  0
TEXT
  8
SPEC
  6
CONTINUOUS
 62
     7
 10
271.875
 20
2915.625
 40
37.5
  1
入出力レベル
  7
TTF_DEFAULT
  0
TEXT
  8
SPEC
  6
CONTINUOUS
 62
     7
 10
271.875
 20
2550.0
 40
37.5
  1
寸法 / 開口寸法
  7
TTF_DEFAULT
  0
TEXT
  8
SPEC
  6
CONTINUOUS
 62
     7
 10
281.25
 20
3993.75
 40
45.0
  1
仕様
  7
TTF_DEFAULT
  0
TEXT
  8
SPEC
  6
CONTINUOUS
 62
     7
 10
271.875
 20
3928.125
 40
37.5
  1
周波数特性
  7
TTF_DEFAULT
  0
TEXT
  8
SPEC
  6
CONTINUOUS
 62
     7
 10
271.875
 20
3871.875
 40
37.5
  1
全高調波歪率
  7
TTF_DEFAULT
  0
TEXT
  8
SPEC
  6
CONTINUOUS
 62
     7
 10
271.875
 20
3759.375
 40
37.5
  1
ノイズ
  7
TTF_DEFAULT
  0
TEXT
  8
SPEC
  6
CONTINUOUS
 62
     7
 10
271.875
 20
3590.625
 40
37.5
  1
クロストーク
  7
TTF_DEFAULT
  0
TEXT
  8
SPEC
  6
CONTINUOUS
 62
     7
 10
271.875
 20
3309.375
 40
37.5
  1
入出力インピーダンス
  7
TTF_DEFAULT
  0
TEXT
  8
SPEC
  6
CONTINUOUS
 62
     7
 10
853.125
 20
3219.375
 40
37.5
  1
出力：75Ω
  7
TTF_DEFAULT
  0
LINE
  8
SPEC
  6
CONTINUOUS
 62
     7
 10
843.75
 20
3975.0
 11
843.75
 21
2442.1875
  0
TEXT
  8
SPEC
  6
CONTINUOUS
 62
     7
 10
853.125
 20
3050.625
 40
37.5
  1
グループ、AUXインサート：+21dBu (600Ω)
  7
TTF_DEFAULT
  0
TEXT
  8
SPEC
  6
CONTINUOUS
 62
     7
 10
853.125
 20
2825.625
 40
37.5
  1
2-Track , tape Returns：+4dBu又は-10dBV
  7
TTF_DEFAULT
  0
TEXT
  8
SPEC
  6
CONTINUOUS
 62
     7
 10
853.125
 20
3140.625
 40
37.5
  1
グループ、AUX出力：+21dBu (600Ω)
  7
TTF_DEFAULT
  0
TEXT
  8
SPEC
  6
CONTINUOUS
 62
     7
 10
853.125
 20
3095.625
 40
37.5
  1
ミックス出力：+27dBu (600Ω)
  7
TTF_DEFAULT
  0
TEXT
  8
SPEC
  6
CONTINUOUS
 62
     7
 10
853.125
 20
2870.625
 40
37.5
  1
ライン入力：-10dBu～+20dBu
  7
TTF_DEFAULT
  0
TEXT
  8
SPEC
  6
CONTINUOUS
 62
     7
 10
853.125
 20
2915.625
 40
37.5
  1
マイク入力：-2dBu～-70dBu
  7
TTF_DEFAULT
  0
TEXT
  8
SPEC
  6
CONTINUOUS
 62
     7
 10
853.125
 20
2690.625
 40
37.5
  1
AUX出力：+4dBu
  7
TTF_DEFAULT
  0
LINE
  8
DIMENSIONS
  6
CONTINUOUS
 62
     7
 10
1430.0
 20
2204.9998
 11
1400.0
 21
2200.0
  0
LINE
  8
DIMENSIONS
  6
CONTINUOUS
 62
     7
 10
1430.0
 20
2195.0002
 11
1400.0
 21
2200.0
  0
TEXT
  8
SPEC
  6
CONTINUOUS
 62
     7
 10
853.125
 20
3309.375
 40
37.5
  1
マイク入力：2kΩ (バランス)
  7
TTF_DEFAULT
  0
TEXT
  8
SPEC
  6
CONTINUOUS
 62
     7
 10
853.125
 20
3264.375
 40
37.5
  1
ライン入力：10kΩ以上 (バランス)
  7
TTF_DEFAULT
  0
LINE
  8
DIMENSIONS
  6
CONTINUOUS
 62
     7
 10
1619.0
 20
2092.0
 11
1619.0
 21
2218.75
  0
TEXT
  8
HIBINO-BASE
  6
CONTINUOUS
 62
     7
 10
2231.25
 20
262.5
 40
37.5
  1
N.Sasaki
  7
TTF_DEFAULT
  0
LINE
  8
HIBINO-BASE
  6
CONTINUOUS
 62
     7
 10
1500.0
 20
375.0
 11
2850.0
 21
375.0
  0
TEXT
  8
HIBINO-BASE
  6
CONTINUOUS
 62
     7
 10
2220.0
 20
337.5
 40
37.5
  1
DRAWN
  7
TTF_DEFAULT
  0
LINE
  8
0
  6
CONTINUOUS
 62
     7
 10
1500.0
 20
565.0
 11
2850.0
 21
565.0
  0
LINE
  8
0
  6
CONTINUOUS
 62
     7
 10
1500.0
 20
560.0
 11
2850.0
 21
560.0
  0
LINE
  8
0
  6
CONTINUOUS
 62
     7
 10
1500.0
 20
565.0
 11
1500.0
 21
560.0
  0
LINE
  8
0
  6
CONTINUOUS
 62
     7
 10
2850.0
 20
565.0
 11
2850.0
 21
560.0
  0
SOLID
  8
HIBINO-BASE
  6
CONTINUOUS
 62
     7
 10
1500.0
 20
565.0
 11
2850.0
 21
565.0
 12
1500.0
 22
560.0
 13
2850.0
 23
560.0
  0
TEXT
  8
DATA
  6
CONTINUOUS
 62
     7
 10
2262.5
 20
496.875
 40
45.0
  1
Soundcraft
  7
TTF_DEFAULT
  0
TEXT
  8
DATA
  6
CONTINUOUS
 62
     7
 10
2187.5
 20
390.625
 40
43.0
  1
DELTA DLX（デスク埋込タ イプ）
  7
TTF_DEFAULT
  0
TEXT
  8
DATA
  6
CONTINUOUS
 62
     7
 10
2187.5
 20
440.625
 40
43.0
  1
8ch , 16ch TYPE
  7
TTF_DEFAULT
  0
TEXT
  8
HIBINO-BASE
  6
CONTINUOUS
 62
     7
 10
1845.0
 20
337.5
 40
37.5
  1
DATE
  7
TTF_DEFAULT
  0
TEXT
  8
HIBINO-BASE
  6
CONTINUOUS
 62
     7
 10
1856.25
 20
262.5
 40
37.5
  1
'99.10.
  7
TTF_DEFAULT
  0
LINE
  8
0
  6
CONTINUOUS
 62
     7
 10
1497.5
 20
225.0
 11
1497.5
 21
562.5
  0
LINE
  8
0
  6
CONTINUOUS
 62
     7
 10
1502.5
 20
225.0
 11
1502.5
 21
562.5
  0
LINE
  8
0
  6
CONTINUOUS
 62
     7
 10
1497.5
 20
225.0
 11
1502.5
 21
225.0
  0
LINE
  8
0
  6
CONTINUOUS
 62
     7
 10
1497.5
 20
562.5
 11
1502.5
 21
562.5
  0
SOLID
  8
HIBINO-BASE
  6
CONTINUOUS
 62
     7
 10
1497.5
 20
225.0
 11
1497.5
 21
562.5
 12
1502.5
 22
225.0
 13
1502.5
 23
562.5
  0
TEXT
  8
HIBINO-BASE
  6
CONTINUOUS
 62
     7
 10
1556.25
 20
243.75
 40
60.0
  1
A4
  7
TTF_DEFAULT
  0
LINE
  8
HIBINO-BASE
  6
CONTINUOUS
 62
     7
 10
1715.625
 20
243.75
 11
1771.875
 21
300.0
  0
TEXT
  8
HIBINO-BASE
  6
CONTINUOUS
 62
     7
 10
1706.25
 20
271.875
 40
45.0
  1
1
  7
TTF_DEFAULT
  0
TEXT
  8
HIBINO-BASE
  6
CONTINUOUS
 62
     7
 10
1507.5
 20
337.5
 40
33.75
  1
図面サイズ
  7
TTF_DEFAULT
  0
TEXT
  8
HIBINO-BASE
  6
CONTINUOUS
 62
     7
 10
1695.0
 20
337.5
 40
37.5
  1
SCALE
  7
TTF_DEFAULT
  0
LINE
  8
HIBINO-BASE
  6
CONTINUOUS
 62
     7
 10
1837.5
 20
225.0
 11
1837.5
 21
375.0
  0
LINE
  8
HIBINO-BASE
  6
CONTINUOUS
 62
     7
 10
1687.5
 20
225.0
 11
1687.5
 21
375.0
  0
TEXT
  8
HIBINO-BASE
  6
CONTINUOUS
 62
     7
 10
1762.5
 20
243.75
 40
45.0
  1
15
  7
TTF_DEFAULT
  0
TEXT
  8
HIBINO-BASE
  6
CONTINUOUS
 62
     7
 10
1507.5
 20
525.0
 40
37.5
  1
NOTE
  7
TTF_DEFAULT
  0
LINE
  8
HIBINO-BASE
  6
CONTINUOUS
 62
     7
 10
2025.0
 20
225.0
 11
2025.0
 21
562.5
  0
TEXT
  8
HIBINO-BASE
  6
CONTINUOUS
 62
     7
 10
2032.5
 20
337.5
 40
37.5
  1
DESIGN
  7
TTF_DEFAULT
  0
LINE
  8
HIBINO-BASE
  6
CONTINUOUS
 62
     7
 10
2212.5
 20
375.0
 11
2212.5
 21
225.0
  0
TEXT
  8
HIBINO-BASE
  6
CONTINUOUS
 62
     7
 10
2032.5
 20
525.0
 40
37.5
  1
TITLE
  7
TTF_DEFAULT
  0
LINE
  8
DATA
  6
CONTINUOUS
 62
     7
 10
1491.999998
 20
1500.0
 11
1619.0
 21
2077.0
  0
LINE
  8
DIMENSIONS
  6
CONTINUOUS
 62
     7
 10
1491.999998
 20
1485.0
 11
1491.999998
 21
1381.25
  0
LINE
  8
DATA
  6
CONTINUOUS
 62
     7
 10
1603.876102
 20
2008.287493
 11
1607.426945
 21
2008.13786
  0
LINE
  8
DATA
  6
CONTINUOUS
 62
     7
 10
1607.100482
 20
2022.93684
 11
1610.386002
 21
2021.581762
  0
LINE
  8
DATA
  6
CONTINUOUS
 62
     7
 10
1610.386002
 20
2021.581762
 11
1607.426945
 21
2008.13786
  0
LINE
  8
DATA
  6
CONTINUOUS
 62
     7
 10
1507.141988
 20
1568.794718
 11
1510.692831
 21
1568.645085
  0
LINE
  8
DATA
  6
CONTINUOUS
 62
     7
 10
1510.366368
 20
1583.444065
 11
1513.651887
 21
1582.088987
  0
LINE
  8
DATA
  6
CONTINUOUS
 62
     7
 10
1513.651887
 20
1582.088987
 11
1510.692831
 21
1568.645085
  0
TEXT
  8
HIBINO-BASE
  6
CONTINUOUS
 62
     7
 10
2380.950394
 20
128.8698
 40
60.0
  1
ヒビノ株式会社
  7
TTF_DEFAULT
  0
TEXT
  8
HIBINO-BASE
  6
CONTINUOUS
 62
     7
 10
2595.0
 20
337.5
 40
37.5
  1
DRAWING NO.
  7
TTF_DEFAULT
  0
TEXT
  8
HIBINO-BASE
  6
CONTINUOUS
 62
     7
 10
2407.5
 20
337.5
 40
37.5
  1
CHECK
  7
TTF_DEFAULT
  0
LINE
  8
HIBINO-BASE
  6
CONTINUOUS
 62
     7
 10
2587.5
 20
375.0
 11
2587.5
 21
225.0
  0
LINE
  8
HIBINO-BASE
  6
CONTINUOUS
 62
     7
 10
2400.0
 20
225.0
 11
2400.0
 21
375.0
  0
LINE
  8
DIMENSIONS
  6
CONTINUOUS
 62
     7
 10
1589.0
 20
2204.9998
 11
1619.0
 21
2200.0
  0
LINE
  8
DIMENSIONS
  6
CONTINUOUS
 62
     7
 10
1589.0
 20
2195.0002
 11
1619.0
 21
2200.0
  0
TEXT
  8
DIMENSIONS
  6
CONTINUOUS
 62
     7
 10
1477.842005
 20
2218.75
 40
37.5
  1
219
  7
TTF_DEFAULT
  0
LINE
  8
SPEC
  6
CONTINUOUS
 62
     7
 10
2387.5
 20
2442.1875
 11
2387.5
 21
3975.0
  0
ENDSEC
  0
EOF
